Текст песни FPG - Думай обомне лучше

Исполнитель:
Название песни:
Думай обомне лучше
Дата добавления:
13.05.2014 | 02:21:54
Просмотров: 943
0 чел. считают текст песни верным
0 чел. считают текст песни неверным

Для вашего ознакомления предоставлен текст песни FPG - Думай обомне лучше, а еще перевод песни с видео или клипом.

Кто круче?

или
F.P.G. - Думай, аккорды

Подбор прислал(а): Хорват (отправить письмо)
Вступление

Em C Hm C D Em
e||---------3--2-----------|----------------------|------------------------|------------------------|
H||----------------3---0---|---------3--1---------|------------0-----------|----------7h-8p7h8------|
G||-----0------------------|-----0----------------|--------0-------0-------|--5---7---9-------------|
D||--2---------------------|----------------------|-----4--------------4---|--5---7---9-------------|
A||------------------------|--3-------------------|--2---------------------|--3---5---7-------------|
E||------------------------|----------------------|------------------------|------------------------|

Em C Hm (флажолеты)
|---------3--2-----------|----------------------|------------------------|-[7]-----------------||
|----------------3---0---|---------3--1---------|------------0-----------|-----[7]-------------||
|-----0------------------|-----0----------------|--------0-------0-------|---------[5]---------||
|--2---------------------|----------------------|-----4--------------4---|---------------------||
|------------------------|--3-------------------|--2---------------------|---------------------||
|------------------------|----------------------|------------------------|---------------------||

Em
Да! я знаю, каким я бываю
C
Жестоким, как я слезиться глаза
Hm
Заставляю, как я плюю в души тех, кто мне
C D Em
Дорог - тех, кому меня так не хватает...

Как я порой беспощаден,
Как мое сердце к чужим мольбам глухо.
Я ни на что не надеюсь, - я знаю
Hm Em
Как было бы глупо... думать обо мне лучше.

Иногда я бываю таким - самому
Тошно: отвратительно злым,
Высокомерным, я любое высокое чувство
A G Em
Опошлю, я любому подонку послужил бы примером.

Как можно быть таким гадом,
Хуже найти невозможно,
Видя в зеркале рожу нахала
A Hm
Я не понимаю как вообще можно думать обо мне лучше?

Em C
Но ты думай обо мне лучше.
G A G
Пусть это будет неправдой
Em C
Я буду знать, что ты думаешь так
Hm
И, может быть, станут действительно лучше

Проигрыш: Em | C | Hm | Hm > 2 раза

Em
Иногда я бываю особо циничным
C
Готовым на все в достижении цели
Hm
Улыбаясь, бесчувственно и методично
Hm
Убивать того, кого вижу в прицеле

Но, я всегда буду честен
Отрава правды бисквита лжи – лучше
Если мы будем вместе
Нам никогда не будет скучно... это я тебе обещаю!

Em C
Я порву свою душу, чтоб укрыть твои плечи,
Am Hm
Вывернув наизнанку чтоб тебе было мягче
Я сделаю все, все чтоб тебе было легче
Если увижу вдруг что ты плачешь...

Понесу на руках, закрывая от ветра,
Я согрею тебя огнедышащим телом
Не задумываясь, я взгляну в глаза смерти
Если ты захочешь, чтоб я это сделал...

Припев > 2 раза

Em
Думай обо мне!
F.P.G. - Think chords
 
Selection sent (a ) Horvath ( send an email )
entry

     Em C Hm CD Em
e||---------3--2-----------|----------------------|------------------------|------------------------|
H||----------------3---0---|---------3--1---------|------------0-----------|----------7h-8p7h8------|
G||-----0------------------|-----0----------------|--------0-------0-------|--5---7---9-------------|
D||--2---------------------|----------------------|-----4--------------4---|--5---7---9-------------|
A||------------------------|--3-------------------|--2---------------------|--3---5---7-------------|
E||------------------------|----------------------|------------------------|------------------------|
                                                                                                
   Em C Hm ( harmonics )
| --------- 3 - 2 ----------- | ---------------------- | - ----------------------- | - [ 7 ] ----------------- | |
| ---------------- 3 --- 0 --- | --------- 3 - 1 --------- | - ----------- 0 ----------- | ----- [ 7 ] ------------- | |
| ----- 0 ------------------ | ----- 0 ---------------- | - ------- ------- 0 0 ------- | --------- [ 5 ] --------- | |
| - 2 --------------------- | ---------------------- | - -------------- 4 ---- 4 --- | --------------------- | |
| ------------------------ | - 3 ------------------- | - -2 --------------------- | --------------------- | |
| ------------------------ | ---------------------- | - ----------------------- | --------------------- | |

Em
Yes ! I know what I am
      C
Cruel, as I tear my eyes
       Hm
Forcing , as I spit in the souls of those who I
 C D Em
Roads - those I do not have enough ...

As I sometimes merciless ,
As my heart to strangers muffled pleas .
I do not hope for that - I know
 Hm Em
As it would be foolish to think of me ... better.

Sometimes I am so - the most
Sickening : disgusting evil
Arrogant , I any high sense
  A G Em
Vulgarized , I schlep anyone would serve as an example .

How can you be so Gad ,
Worse can not be found ,
Seeing in the mirror face bugger
   A Hm
I do not understand how you can think better of me ?

Em C
But you think of me better.
G A G
Let it be a lie
Em C
I'll know what you think so
Hm
And maybe become really better

Lose : Em | C | Hm | Hm> 2 times

  Em
Sometimes I am particularly cynical
   C
Ready to do anything to achieve the goal
    Hm
Smiling, insensitive and methodically
    Hm
Kill someone see in sight

But I will always be honest
Bane biscuit truth lies - better
If we are together
We will never be bored ... I promise you !

Em C
I tear my soul to hide your shoulders ,
Am Hm
Inside out so that you were softer
I'll do everything so that you have easier
If you suddenly see that you cry ...

Suffered at the hands of closing of the wind,
I 'll warm you fire-breathing body
Without hesitation , I will look death in the eye
If you want me to do it ...

Chorus > 2 times

Em
Think of me !
Опрос: Верный ли текст песни? Да Нет