Текст песни Animal джаз - 7 Часов По Фаренгейту

Исполнитель
Название песни
7 Часов По Фаренгейту
Дата добавления
07.12.2021 | 18:20:16
Просмотров 3
0 чел. считают текст песни верным
0 чел. считают текст песни неверным

Для вашего ознакомления предоставлен текст песни Animal джаз - 7 Часов По Фаренгейту, а еще перевод песни с видео или клипом.

Em(7)
Брошенный жребий
Не дает покоя мне
Тонкая стрелка
Вновь застыла на нуле
Хлынет песок
Мутный поток
Не оставит и следа
Время не лечит никогда

Chorus:
D7 Em(7)
Я не могу больше ждать
D7 Em(7)
Просто бегу вдоль дороги

Как перевертыш
В океане миражей
Желтой иконой месяц
Царь среди теней
Хлынет песок
Мутный поток
Не оставит и следа
Время не лечит никогда

Я не могу больше ждать
Просто бегу вдоль дороги
Тянется нить - не оборвать
Меня найдут и снимут с гонки

Этот рифф играется во вступлении и куплетах:

Em(7)
e:--------------------------------------------------|
B:--------------------------------------------------|
G:--------------------------------------------------|
D:---2---2x--2---0/2-5--2~--2---2x--2-------0/2-----|
A:---2---2x--2--------------2---2x--2---0/2-----5~--|
E:---0---0x--0--------------0---0x--0---------------|

Em Em7 D7 D7
E:---0---0---2---5---|
B:---0---3---1---7---|
G:---0---0---2---5---|
D:---2---2---0---7---|
A:---2---2---x---5---|
E:---0---0---x---x---|
Em (7)
Thrown lot
Doesn't give rest to me
Thin arrows
Again froze on zero
Pun sand
Muddy flow
Will not leave a trace
Time never treats

Chorus:
D7 EM (7)
I can not wait anymore
D7 EM (7)
Just run along the road

How to transfer
In the ocean mirageen
Yellow icon month
Tsar among the shadows
Pun sand
Muddy flow
Will not leave a trace
Time never treats

I can not wait anymore
Just run along the road
Stretches the thread - not to cut
I will find me and remove from the race

This riff is played in joining and bus:

Em (7)
E: -------------------------------------------------- - |
B: -------------------------------------------------- - |
G: -------------------------------------------------- - |
D: --- 2 --- 2X - 2 --- 0 / 2-5--2 ~ --2 --- 2X - 2 ------- 0/2 ----- |
A: --- 2 --- 2X - 2 -------------- 2 --- 2X - 2 --- 0/2 ----- 5 ~ - |
E: --- 0 --- 0x - 0 -------------- 0 --- 0x - 0 --------------- |

Em Em7 D7 D7
E: --- 0 --- 0 --- 2 --- 5 --- |
B: --- 0 --- 3 --- 1 --- 7 --- |
G: --- 0 --- 0 --- 2 --- 5 --- |
D: --- 2 --- 2 --- 0 --- 7 --- |
A: --- 2 --- 2 --- x --- 5 --- |
E: --- 0 --- 0 --- x --- x --- |
Опрос: Верный ли текст песни? Да Нет